Fairy Tale – Shaman – álbum: Ritual


A tablatura abaixo foi enviada por Rodrigo dos Santos Vieira. | Publicado em 02/04/06

E||-----------------------|----------------------|-----------------------|
B||-----------------------|----------------------|-----------------------|
G||-----------------------|----------------------|------------------2----|
D||--------------------2--|----------------------|----------2----5-------|
A||------0----2--3---5----|--5---3-2--0----------|--3----5---------------|
E||-----------------------|----------------------|-----------------------| 
                                                                      
e||---------------------|-------------------------|-----------------------|
B||---------------------|-------------------------|-----------------------|
G||---------------------|-------------------------|-----------------------|
D||--5--2------------2--|-------------------------|-----------------------|
A||---------------------|--5----3-2-3----2-0-2----|-----------3-----------|
E||---------------------|-------------------------|--5-3-5-------5--------|
                                                
e||-----------------------|----------------------||
B||-----------------------|----------------------||
G||-----------------------|----------------------||
D||--------------------2--|----------------------||
A||------0----2--3---5----|--5---3-2--0----------||
E||-----------------------|----------------------||

Am    C     G   Am
Fairy lady, who stands on the walls
  C         G       Am
Life is short and wait is long
     D       Am   G           F     D  
The stars, away, dim with the dawn...
Am     F     G       Am
Fairy lady, who stands on the walls 

Am   C      G     Am
Your tale has only begun
              C        G       Am
It comes from far, the Nowhereland
     D       Am        G            F     D  
The wind is blowing a sound well known...
Am     F     G       Am
Fairy lady, your love is long gone 

Am  G   Em          Am                   G   Em
Oh darling, hear my soul and heed my cry
Am             G    Em          F                 D
Cause all my crying may flood a river in my heart 

C G   Bb      F
Oh,   life is good
C G   Bb      F 
Oh,   life is good
C G   Bb      F 
Oh,   life is good...
Ab Bb
As good as you wish!" 

Am      C     G   Am
Pretty lady, the horses are back
   C       G       Am
Bringing joy and happiness
     D       Am         G           F     D  
But all of a sudden the horses are gone
                F             G         Am
It was only the sound of your heartbeat alone! 

Am  G   Em          Am                   G   Em
Oh darling, hear my soul and heed my cry
Am             G    Em          F                 D
Cause all my crying may flood an ocean in my heart

C G   Bb      F
Oh,   life is good
C G   Bb      F 
Oh,   life is good
C G   Bb      F 
Oh,   life is good...
Ab Bb
As good as a kiss!"

Ebm    Db   Bbm      Ebm               Db   Bbm
Oh my darling, now I cannot halt my cries
Ebm               Db     Bbm
My tears have drowned me
          B Bb
And I refuse to realise 

(mesmos acordes do verso anterior)
Ebm           Db    Bbm           Ebm                   Db   Bbm
What's left around me, it's all so strange, it's all so dark
Ebm       Db       Bbm
I'm all alone here
            B                   C#
To mend the pieces of my heart 

-----------------------12-11------------------------------12-14-16-14--
11h12-------------------------14-12--11h12-----------------------------
----------11--11h13-13------------------------11-11h13-13--------------
-------11----------------------------------11--------------------------
-----------------------------------------------------------------------
-----------------------------------------------------------------------

19-18h19----------18-19-18h19----------18-17-16------------------------
---------19----19-------------19----19----------17---------------------
------------18-------------------18----------------16-14-13------------
------------------------------------------------------------14---------
-----------------------------------------------------------------------
-----------------------------------------------------------------------

-----------------------------12-14-16-17-16-14-12-12-------------------
-----------------------------------------------------------------------
14b16-16r14-13h14p13---------------------------------------------------
----------------------14--14-------------------------------------------
-----------------------------------------------------------------------
-----------------------------------------------------------------------

(volta piano da intro)
Am       C        G            Am
Little lady, your tale has an end
            C         G          Am
For your love to the skies was sent
      D           Am         G                F       D
He's turned into sparks that shine with the stars... 

          F             G         F
...And by night he will always be there
         G      F
For his lady to stare
     G     Am . . . .
And thus he's never died.

About Janus

Janus Aureus is my recently-inaugurated personal blog (written in portuguese, but with some texts in english as well). Fiore Rouge is my old (but still very active - in fact, more than Janus :P) blog (I started it back in 2005). Mentalize is a fan-made website (since 2005). if you wish to contact me for any reason, visit my blog and leave a comment OR see email above (top left) - no, my name's not Andre - actually, I'm not even a guy! LOL Long story... O Janus Aureus é meu blog pessoal - escrito em português - ainda sem muito conteúdo, pois foi começado no final de dezembro de 2011. Já o Mentalize foi aberto em 2005 e está escrito em várias línguas *rs* Privilegio o uso do inglês ali porque o pessoal estrangeiro não tem muitas informações sobre o AM. Quem quiser entrar em contato comigo por qualquer motivo, deixe um comentário nos meus blogs ou use o email que está aí em cima à esquerda (e não, eu não sou o Andre - aliás, sou mulher!).

Leave a Reply

Fill in your details below or click an icon to log in:

WordPress.com Logo

You are commenting using your WordPress.com account. Log Out / Change )

Twitter picture

You are commenting using your Twitter account. Log Out / Change )

Facebook photo

You are commenting using your Facebook account. Log Out / Change )

Google+ photo

You are commenting using your Google+ account. Log Out / Change )

Connecting to %s