Pride – Shaman – album: Ritual


A tablatura abaixo foi enviada por Fernando Lopes Mazzer | Publicado em 02/04/06

 
Intro (depois do solo)
------------------------------
------------------------------
--7-x-7-x-------7-x-7-x-------               4X
--7-x-7-x-------7-x-7-x-------
--5-x-5-x-------5-x-5-x-------
----------7-6-5---------7-6-5-

Somedays I wish run away
Fall in the love and stray,
My life is turning,turning

But when there's nowhere else to go
Pray to the Lord, my soul,
My heart is burning,burning

-----------------------------------------------------------------------
-----------------------------------------------------------------------
-7-x-7-7-x-7-x-7-x-7-7-------7-x-7-7-x-7-x-7-x-7-7-x-7-x-5--4-xxx-5--4-             2X
-7-x-7-7-x-7-x-7-x-7-7-------7-x-7-7-x-7-x-7-x-7-7-x-7-x-5--4-xxx-5--4-
-5-x-5-5-x-5-x-5-x-5-5-------5-x-5-5-x-5-x-5-x-5-5-x-5-x-3--2-xxx-3--2-
-----------------------7-6-5-------------------------------------------

You betray yourself
When you think
That you're someone else
---------------------------------------------
---------------------------------------------
------5-------7--7---------5-------5---------
--7---5---5---7--7-----7---5---5---5---------
--7---3---5---5--5-----7---3---5---3---------
--5-------3------------5-------3-------------

Someday I'll understand my dreams
So deep inside
And them I'm free again to leave
The pain behind
-------------------------------------------------------
-------------------------------------------------------
-----5-----7-----------5--------5-----7-----------7----
--7--5--5--7-----5--3--5-----7--5--5--7-----5--7--7----
--7--3--5--5-----5--3--3-----7--3--5--5-----5--7--5----
--5-----3--------3--1--------5-----3--------3--5-------

Right here in my hand
Feelings I can't hide
Someday I'm gone away with nothing
But my pride

----------------------------------------
----------------------------------------
-----5-----7--5-----------7--------5----
--7--5--5--7--5--7--5--7--7--3--5--5----
--7--3--5--5--3--7--5--7--5--3--5--3----
--5-----3--------5--3--5-----1--3-------

------------------------------
------------------------------
--7-x-7-x-------7-x-7-x-------               4X
--7-x-7-x-------7-x-7-x-------
--5-x-5-x-------5-x-5-x-------
----------7-6-5---------7-6-5-

Somedays I wish run away
Fall in the love and stray,
My life is turning,turning

But when there's nowhere else to go
Pray to the Lord, my soul,
My heart is burning,burning

-----------------------------------------------------------------------
-----------------------------------------------------------------------
-7-x-7-7-x-7-x-7-x-7-7-------7-x-7-7-x-7-x-7-x-7-7-x-7-x-5--4-xxx-5--4-             2X
-7-x-7-7-x-7-x-7-x-7-7-------7-x-7-7-x-7-x-7-x-7-7-x-7-x-5--4-xxx-5--4-
-5-x-5-5-x-5-x-5-x-5-5-------5-x-5-5-x-5-x-5-x-5-5-x-5-x-3--2-xxx-3--2-
-----------------------7-6-5-------------------------------------------

You forgive youself
When you know
That you're someone else

---------------------------------------------
---------------------------------------------
------5-------7--7---------5-------5---------
--7---5---5---7--7-----7---5---5---5---------
--7---3---5---5--5-----7---3---5---3---------
--5-------3------------5-------3-------------

Someday I'll understand my dreams
So deep inside
And them I'm free again to leave
The pain behind
-------------------------------------------------------
-------------------------------------------------------
-----5-----7-----------5--------5-----7-----------7----
--7--5--5--7-----5--3--5-----7--5--5--7-----5--7--7----
--7--3--5--5-----5--3--3-----7--3--5--5-----5--7--5----
--5-----3--------3--1--------5-----3--------3--5-------

Right here in my hand
Feelings I can't hide
Someday I'm gone away with nothing
But my pride

----------------------------------------
----------------------------------------
-----5-----7--5-----------7--------5----
--7--5--5--7--5--7--5--7--7--3--5--5----
--7--3--5--5--3--7--5--7--5--3--5--3----
--5-----3--------5--3--5-----1--3-------

Dai vem um riff de baxo e um solo de guita, a base do solo é:

-----------------------------------------------------------------------
-----------------------------------------------------------------------
-7-x-7-7-x-7-x-7-x-7-7-------7-x-7-7-x-7-x-7-x-7-7-x-7-x-5--4-xxx-5--4-             2X
-7-x-7-7-x-7-x-7-x-7-7-------7-x-7-7-x-7-x-7-x-7-7-x-7-x-5--4-xxx-5--4-
-5-x-5-5-x-5-x-5-x-5-5-------5-x-5-5-x-5-x-5-x-5-5-x-5-x-3--2-xxx-3--2-
-----------------------7-6-5-------------------------------------------

You forgive youself
When you know
That you're someone else

---------------------------------------------
---------------------------------------------
------5-------7--7---------5-------5---------
--7---5---5---7--7-----7---5---5---5---------
--7---3---5---5--5-----7---3---5---3---------
--5-------3------------5-------3-------------

Someday I'll understand my dreams
So deep inside
And them I'm free again to leave
The pain behind
-------------------------------------------------------
-------------------------------------------------------
-----5-----7-----------5--------5-----7-----------7----
--7--5--5--7-----5--3--5-----7--5--5--7-----5--7--7----
--7--3--5--5-----5--3--3-----7--3--5--5-----5--7--5----
--5-----3--------3--1--------5-----3--------3--5-------

Right here in my hand
Feelings I can't hide
Someday I'm gone away with nothing
But my pride

----------------------------------------
----------------------------------------
-----5-----7--5-----------7--------5----
--7--5--5--7--5--7--5--7--7--3--5--5----
--7--3--5--5--3--7--5--7--5--3--5--3----
--5-----3--------5--3--5-----1--3-------

Final:

-------------------------------------
-------------------------------------
-----5-----7--------7----------------
--7--5--5--7--5--7--7----------------
--7--3--5--5--5--7--5----------------
--5-----3-----3--5-------------------

About Janus

Janus Aureus is my recently-inaugurated personal blog (written in portuguese, but with some texts in english as well). Fiore Rouge is my old (but still very active - in fact, more than Janus :P) blog (I started it back in 2005). Mentalize is a fan-made website (since 2005). if you wish to contact me for any reason, visit my blog and leave a comment OR see email above (top left) - no, my name's not Andre - actually, I'm not even a guy! LOL Long story... O Janus Aureus é meu blog pessoal - escrito em português - ainda sem muito conteúdo, pois foi começado no final de dezembro de 2011. Já o Mentalize foi aberto em 2005 e está escrito em várias línguas *rs* Privilegio o uso do inglês ali porque o pessoal estrangeiro não tem muitas informações sobre o AM. Quem quiser entrar em contato comigo por qualquer motivo, deixe um comentário nos meus blogs ou use o email que está aí em cima à esquerda (e não, eu não sou o Andre - aliás, sou mulher!).

Leave a Reply

Fill in your details below or click an icon to log in:

WordPress.com Logo

You are commenting using your WordPress.com account. Log Out / Change )

Twitter picture

You are commenting using your Twitter account. Log Out / Change )

Facebook photo

You are commenting using your Facebook account. Log Out / Change )

Google+ photo

You are commenting using your Google+ account. Log Out / Change )

Connecting to %s