Lisbon (Angra)


A tablatura abaixo foi enviada por Moacy de Sousa Prado Junior | Publicado em 02/04/06

E||------------------|------------------|------------------|------------------|
B||------------------|------------------|------------------|------------------|
G||------------------|------------------|------------------|------------------|
D||------------------|------------------|------------------|------------------|
A||------------------|------------------|------------------|------------------|
E||------------------|------------------|------------------|------------------|

                                                                        
--------------|------------------|------------------|------------------|
--------------|------------------|------------------|------------------|
--------------|------------------|------------------|------------------|
--------------|------------------|------------------|------------------|
--------------|------------------|------------------|------------------|
--------------|------------------|------------------|------------------|

                                                                  
----------------|-----------------------|------------------------|
----------------|-----------------------|------------------------|
----------------|-----------------------|------------------------|
----------------|------------2----------|-------------2----------|
----------------|-----------------------|------------------------|
------------0-0-|--0------0---------0-0-|--0--0----0---------0-0-|

                                                                 
------------------------|------------------|--------------------|
------------------------|------------------|--------------------|
------------------------|------------------|--------------------|
-------------2----------|------------------|--0--------0--------|
------------------------|--2------0--------|--------------------|
--0--0----0---------0-0-|--------------0-0-|--------------------|

                                                                     
------------------------|------------------------|------------------|
------------------------|------------------------|------------------|
------------------------|------------------------|------------------|
--0--0----0--0----------|------------------------|------------------|
------------------------|--3--3----3--3----------|--2------3--------|
--------------------0-0-|--------------------0-0-|--------------0-0-|

                                                                          
-----------------------|------------------------|------------------------|
-----------------------|------------------------|------------------------|
-----------------------|------------------------|------------------------|
------------2----------|-------------2----------|-------------2----------|
-----------------------|------------------------|------------------------|
--0------0---------0-0-|--0--0----0---------0-0-|--0--0----0---------0-0-|

                                                                 
------------------|--------------------|------------------------|
------------------|--------------------|------------------------|
------------------|--------------------|------------------------|
------------------|--0--------0--------|--0--0----0--0----------|
--2------0--------|--------------------|------------------------|
--------------0-0-|--------------------|--------------------0-0-|

                                                                   
------------------------|---------------------|-------------------|
------------------------|---------------------|-------------------|
------------------------|---------------------|-------------------|
------------------------|---------------------|-------------------|
--3--3----3--3----------|--2------3------2----|--0----------------|
--------------------0-0-|---------------------|-------------------|

                                                               
------------------|--------------------|----------------------|
------------------|--------------------|----------------------|
------------------|--------------------|----------------------|
------------------|--------------------|----------------------|
------------------|--3-----------------|--3----3--------3--2--|
------------------|-----------------3--|----------------------|

                                                                
--------------------|---------------------|--------------------|
--------------------|---------------------|--------------------|
--------------------|---------------------|--------------------|
--------------------|---------------------|--------------------|
--0-----------------|--0----0--------2----|--3-----------------|
-----------------0--|---------------------|-----------------3--|

                                                                
----------------------|-------------------|--------------------|
----------------------|-------------------|--------------------|
----------------------|-------------------|--------------------|
----------------0--2--|--0----------------|--0----0------------|
--3----3--------------|-------------------|--------------------|
----------------------|-------------------|--------------------|

                                                                 
---------------------|----------------------|-------------------|
---------------------|----------------------|-------------------|
---------------------|----------------------|-------------------|
--3------2------0----|----------------------|-------------------|
---------------------|----3------2--0-------|--0----------------|
---------------------|-----------------3----|-------------------|

                                                           
-------------------|-------------------|------------------|
-------------------|-------------------|------------------|
-------------------|-------------------|------------------|
-------------------|-------------------|------------------|
-------------------|--0----------------|------------------|
--3----------------|-------------------|------------------|

                                                                 
---------------------|---------------------|--------------------|
---------------------|---------------------|--------------------|
---------------------|---------------------|--------------------|
---------------------|---------------------|--------------------|
--0--------0---------|--0----0--------2----|--3-----------------|
------------------0--|---------------------|-----------------3--|

                                                                  
----------------------|--------------------|---------------------|
----------------------|--------------------|---------------------|
----------------------|--------------------|---------------------|
----------------------|--------------------|---------------------|
--3----3--------3--2--|--0-----------------|--0----0--------2----|
----------------------|-----------------0--|---------------------|

                                                                
--------------------|----------------------|-------------------|
--------------------|----------------------|-------------------|
--------------------|----------------------|-------------------|
--------------------|----------------0--2--|--0----------------|
--3-----------------|--3----3--------------|-------------------|
-----------------3--|----------------------|-------------------|

                                                                  
--------------------|---------------------|----------------------|
--------------------|---------------------|----------------------|
--------------------|---------------------|----------------------|
--0----0------------|--3------2------0----|----------------------|
--------------------|---------------------|----3------2--0-------|
--------------------|---------------------|-----------------3----|

                                                                               
-------------------|-------------------|-------------------|------------------|
-------------------|-------------------|-------------------|------------------|
-------------------|-------------------|-------------------|------------------|
-------------------|-------------------|-------------------|------------------|
--0----------------|-------------------|--0----------------|------------------|
-------------------|--3----------------|-------------------|------------------|

                                                      
--------------------------|--------------------------|
--------------------------|--------------------------|
--------------------------|--------------------------|
--------------------------|-----------3-----3-----3--|
--------------------------|--------------------------|
--0--0--0--0--0--0--0--0--|--1--1--1-----1-----1-----|

                                                      
--------------------------|--------------------------|
--------------------------|--------------------------|
--------------------------|--------------------------|
--------------------------|-----------3-----3-----3--|
--------------------------|--------------------------|
--0--0--0--0--0--0--0--0--|--1--1--1-----1-----1-----|

                                                      
--------------------------|--------------------------|
--------------------------|--------------------------|
--------------------------|--------------------------|
--------------------------|-----------3-----3-----3--|
--------------------------|--------------------------|
--0--0--0--0--0--0--0--0--|--1--1--1-----1-----1-----|

                                                                              
--------------------------|-------------------------|------------------------|
--------------------------|-------------------------|------------------------|
--------------------------|-----------0----0-----0--|--2-------2-----2--2----|
--------------------------|-------------------------|-----2-------2----------|
--------------------------|-------------------------|--0-------0-----0--0----|
--0--0--0--0--0--0--0--0--|--1--1--1----------3-----|-----0-------0----------|

                                                                     
---------------------|----------------------|-----------------------|
-----------0----1----|----------------------|-----------------------|
------2--------------|--0-----------0--0----|----0--0-------2----0--|
---------------------|-----------0----------|------------0----------|
------0----2----3----|----------------------|---------------0-------|
---------------------|--3-----------3--3----|----3--3------------3--|

                                                                          
---------------------|------------------------|--------------------------|
---------------------|-----------3---1----0---|--------------------------|
---------------------|------------------------|--------------------------|
--3------------3--2--|--0--------0------------|--------------------------|
---------------------|---------------3----2---|--0--0--0--0--0--0--0--0--|
--1------------1--0--|------------------------|--------------------------|

                                                                               
------------------------|--------------------------|--------------------------|
------------------------|--------------------------|--------------------------|
------------------------|--------------------------|--------------------------|
------------------------|--------------------------|--------------------------|
--0--0--0--0--2----3----|-----------------------0--|--2--2--2--3--2--3--0-----|
------------------------|--3--3--3--3--3--3--3-----|-----------------------3--|

                                                       
--------------------------|---------------------------|
--------------------------|---------------------------|
--------------------------|---------------------------|
--------------------------|--0--0--0-----0------------|
--------------------------|-----------0------3----2---|
--1--1--1--1--1--1--1--0--|---------------------------|

                                                                                
-------------------------|--------------------------|--------------------------|
-------------------------|--------------------------|--------------------------|
-------------------------|--------------------------|--------------------------|
-------------------------|--------------------------|--------------------------|
-------------------------|--------------------------|--------------------------|
--0----0--0--0--0--0--0--|--0--0--0--0--0--0--0--0--|--0--0--0--0--0--0--0--0--|

                                                                           
--------------------|--------------------------|--------------------------|
--------------------|--------------------------|--------------------------|
--------------------|--------------------------|--------------------------|
--------------------|--0--0--0--0--0--0--0--0--|--0--0--0--0--0--0--0--0--|
--------------------|--------------------------|--------------------------|
--0--0--0--0--0--0--|--------------------------|--------------------------|

                                                                          
--------------------------|--------------------|-------------------------|
--------------------------|--------------------|-------------------------|
--------------------------|--------------------|-------------------------|
--------------------------|--------------------|-------------------------|
--3--3--3--3--3--3--3--3--|--2--2--2--3--2--0--|-------------------------|
--------------------------|--------------------|--0----0--0--0--0--0--0--|

                                                                           
--------------------------|--------------------------|--------------------|
--------------------------|--------------------------|--------------------|
--------------------------|--------------------------|--------------------|
--------------------------|--------------------------|--------------------|
--------------------------|--------------------------|--------------------|
--0--0--0--0--0--0--0--0--|--0--0--0--0--0--0--0--0--|--0--0--0--0--0--0--|

                                                      
--------------------------|--------------------------|
--------------------------|--------------------------|
--------------------------|--------------------------|
--0--0--0--0--0--0--0--0--|--0--0--0--0--0--0--0--0--|
--------------------------|--------------------------|
--------------------------|--------------------------|

                                                                        
--------------------------|---------------------|----------------------|
--------------------------|---------------------|----------------------|
--------------------------|---------------------|--------------2--2----|
--------------------------|---------------------|-----------2----------|
--3--3--3--3--3--3--3--3--|--2------3------2----|--0-------------------|
--------------------------|---------------------|----------------------|

                                                                    
--------------------|---------------------|------------------------|
----------0----1----|---------------------|------------------------|
--------------------|--0------------------|------------------------|
--------------------|---------0-----------|------------------------|
--------------------|---------------------|----0--0--2----3----0---|
--------------------|----------------3----|----------------------3-|

                                                                      
----------------------|-------------------------|--------------------|
----------------------|-------------------------|--------------------|
----------------------|-------------------------|---------------2----|
------------3---------|--0---------0------------|--------------------|
---------3-------3----|---------0------3----2---|--0-----------------|
--1-------------------|-------------------------|--------------------|

                                                                     
----------------------|---------------------|-----------------------|
----------------------|----------------0----|----1------1--0--------|
----2--2----0---------|--0------2-----------|-----------------2--0--|
-----------------2----|---------------------|-----------------------|
----------------------|---------------------|-----------------------|
----------------------|---------------------|-----------------------|

                                                                  
--------------------|------------------------|-------------------|
--------------------|------------------------|-------------------|
--------------------|------------------------|-------------------|
--3--------------2--|--0--------0------------|-------------------|
--------------------|---------------3----2---|--0----------------|
--------------------|------------------------|-------------------|

                                                                            
------------------|------------------|------------------|------------------|
------------------|------------------|------------------|------------------|
------------------|------------------|------------------|------------------|
------------------|------------------|------------------|------------------|
------------------|------------------|------------------|------------------|
------------------|------------------|------------------|------------------|

                                                                            
------------------|------------------|------------------|------------------|
------------------|------------------|------------------|------------------|
------------------|------------------|------------------|------------------|
------------------|------------------|------------------|------------------|
------------------|------------------|------------------|------------------|
------------------|------------------|------------------|------------------|

                                                                            
------------------|------------------|------------------|------------------|
------------------|------------------|------------------|------------------|
------------------|------------------|------------------|------------------|
------------------|------------------|------------------|------------------|
------------------|------------------|------------------|------------------|
------------------|------------------|------------------|------------------|

                                                         
------------------|------------------|------------------|
------------------|------------------|------------------|
------------------|------------------|------------------|
------------------|------------------|------------------|
------------------|------------------|------------------|
------------------|------------------|------------------|

                                                      
--------------------------|--------------------------|
--------------------------|--------------------------|
--------------------------|--------------------------|
--------------------------|-----------3-----3-----3--|
--------------------------|--------------------------|
--0--0--0--0--0--0--0--0--|--1--1--1-----1-----1-----|

                                                      
--------------------------|--------------------------|
--------------------------|--------------------------|
--------------------------|--------------------------|
--------------------------|-----------3-----3-----3--|
--------------------------|--------------------------|
--0--0--0--0--0--0--0--0--|--1--1--1-----1-----1-----|

                                                      
--------------------------|--------------------------|
--------------------------|--------------------------|
--------------------------|--------------------------|
--------------------------|-----------3-----3-----3--|
--------------------------|--------------------------|
--0--0--0--0--0--0--0--0--|--1--1--1-----1-----1-----|

                                                                           
--------------------------|-------------------------|---------------------|
--------------------------|-------------------------|---------------------|
--------------------------|-----------0----0-----0--|----------------2----|
--------------------------|-------------------------|-----------2---------|
--------------------------|-------------------------|--0------------------|
--0--0--0--0--0--0--0--0--|--1--1--1----------3-----|---------------------|

                                                                    
--------------------|---------------------|------------------------|
--------------------|---------------------|------------------------|
--------------------|--0------------------|------------------------|
---------------2----|-----------0---------|------------------------|
----------2---------|---------------------|----0----2--3--2--0-----|
--------------------|----------------3----|---------------------3--|

                                                                      
---------------------|-------------------------|---------------------|
---------------------|-------------------------|---------------------|
---------------------|-------------------------|----------------2----|
---------------3--2--|--0---------0------------|-----------2---------|
---------------------|---------0------3----2---|--0------------------|
--1------------------|-------------------------|---------------------|

                                                                            
-----------------------|-------------------------|-------------------------|
-----------------------|-------------------------|--0-----3--0----1--0-----|
--2--2--2--------------|--0--0--0----0--0--0--0--|-----0----------------0--|
-----------------------|-------------------------|-------------------------|
-------------2----3----|-------------------------|-------------------------|
-----------------------|-------------------------|-------------------------|

                                                                            
-------------------------|---------------------------|---------------------|
-------------------------|---------------------------|---------------------|
-------------------------|---------------------------|----------------2----|
--3----3--3--3--3--3--2--|--0--0--0-----0------------|-----------2---------|
-------------------------|-----------0------3----2---|--0------------------|
-------------------------|---------------------------|---------------------|

                                                                            
-----------------------|-------------------------|-------------------------|
-----------------------|-------------------------|--0-----3--0----1--0-----|
--2--2--2--------------|--0--0--0----0--0--0--0--|-----0----------------0--|
-----------------------|-------------------------|-------------------------|
-------------2----3----|-------------------------|-------------------------|
-----------------------|-------------------------|-------------------------|

                                                                            
-------------------------|---------------------------|---------------------|
-------------------------|---------------------------|---------------------|
-------------------------|---------------------------|----------------2----|
--3----3--3--3--3--3--2--|--0--0--0-----0------------|-----------2---------|
-------------------------|-----------0------3----2---|--0------------------|
-------------------------|---------------------------|---------------------|

                                                                            
-----------------------|-------------------------|-------------------------|
-----------------------|-------------------------|--0-----3--0----1--0-----|
--2--2--2--------------|--0--0--0----0--0--0--0--|-----0----------------0--|
-----------------------|-------------------------|-------------------------|
-------------2----3----|-------------------------|-------------------------|
-----------------------|-------------------------|-------------------------|

                                                                                
-------------------------|---------------------------|-------------------------|
-------------------------|---------------------------|-------------------------|
-------------------------|---------------------------|-------2--2--------2--2--|
--3----3--3--3--3--3--2--|--0--0--0-----0------------|-------------------------|
-------------------------|-----------0------3----2---|--0----------0--0--------|
-------------------------|---------------------------|-------------------------|

                                                                               
-------------------------|--------------------------|-------------------------|
-------------------------|--------------------------|--3--0--3----0--1--0-----|
---------2-2-------------|--0--0--0--0--0--0--0--0--|----------------------0--|
-------------------------|--------------------------|-------------------------|
--0----------2--2--3--3--|--------------------------|-------------------------|
-------------------------|--------------------------|-------------------------|

                                                       
--------------------------|---------------------------|
--------------------------|---------------------------|
--------------------------|---------------------------|
--3--3--3--3--3--3--3--2--|--0--0--0-----0------------|
--------------------------|-----------0------3----2---|
--------------------------|---------------------------|

                                                                               
-------------------------|-------------------------|--------------------------|
-------------------------|-------------------------|--------------------------|
-------2--2--------2--2--|---------2-2-------------|--0--0--0--0--0--0--0--0--|
-------------------------|-------------------------|--------------------------|
--0----------0--0--------|--0----------2--2--3--3--|--------------------------|
-------------------------|-------------------------|--------------------------|

                                                     
-------------------------|--------------------------|
--3--0--3----0--1--0-----|--------------------------|
----------------------0--|--------------------------|
-------------------------|--3--3--3--3--3--3--3--2--|
-------------------------|--------------------------|
-------------------------|--------------------------|

                                                               
---------------------------|----------------------------------|
---------------------------|----------------------------------|
---------------------------|----------------------------------|
--0--0--0-----0------------|----------------------------------|
-----------0------3----2---|--0-0-0-0-0-0-0-0-0-0-0-0-0-0-0-0-|
---------------------------|----------------------------------|

                                                                      
----------------------------------|----------------------------------|
----------------------------------|----------------------------------|
----------------------------------|----------------------------------|
----------------------------------|----------------------------------|
--0-0-0-0-0-0-0-0-0-0-0-0-0-0-0-0-|----------------------------------|
----------------------------------|--3-3-3-3-3-3-3-3-3-3-3-3-3-3-3-3-|

                                                                      
----------------------------------|----------------------------------|
----------------------------------|----------------------------------|
----------------------------------|----------------------------------|
----------------------------------|--3-3-3-3-3-3-3-3-3-3-3-3-3-3-3-3-|
----------------------------------|----------------------------------|
--3-3-3-3-3-3-3-3-3-3-3-3-3-3-3-3-|----------------------------------|

                                                                   
-------------------------------|----------------------------------|
-------------------------------|----------------------------------|
-------------------------------|----------------------------------|
--0-0-0-0-0-0-0-0-0------------|----------------------------------|
----------------------3----2---|--0-0-0-0-0-0-0-0-0-0-0-0-0-0-0-0-|
-------------------------------|----------------------------------|

                                                                      
----------------------------------|----------------------------------|
----------------------------------|----------------------------------|
----------------------------------|----------------------------------|
----------------------------------|----------------------------------|
--0-0-0-0-0-0-0-0-0-0-0-0-0-0-0-0-|----------------------------------|
----------------------------------|--3-3-3-3-3-3-3-3-3-3-3-3-3-3-3-3-|

                                                                      
----------------------------------|----------------------------------|
----------------------------------|----------------------------------|
----------------------------------|----------------------------------|
----------------------------------|--3-3-3-3-3-3-3-3-3-3-3-3-3-3-3-3-|
----------------------------------|----------------------------------|
--3-3-3-3-3-3-3-3-3-3-3-3-3-3-3-3-|----------------------------------|

                                                          
-------------------------------|-------------------------|
-------------------------------|-------------------------|
-------------------------------|-------2--2--2--2--2--2--|
--0-0-0-0-0-0-0-0-0------------|-------------------------|
----------------------3----2---|--0----------------------|
-------------------------------|-------------------------|

                                                                            
------------------------|-------------------------|------------------------|
--------------0----1----|-------------------------|------------------------|
--2--2--2--2------------|--0--0--0--0--0--0-------|------------------------|
------------------------|--------------------0----|------------------0-----|
------------------------|-------------------------|-----0----2----3--------|
------------------------|-------------------------|--3------------------3--|

                                                                                
-------------------------|---------------------------|-------------------------|
-------------------------|---------------------------|-------------------------|
-------------------------|---------------------------|-------2--2--2--2--2--2--|
--3----3--3--3--3--3--2--|--0--0--0--0--0------------|-------------------------|
-------------------------|------------------3----2---|--0----------------------|
-------------------------|---------------------------|-------------------------|

                                                                              
--------------------------|-------------------------|------------------------|
--------------------------|-------------------------|------------------------|
--2--2--2--2--------------|--0--0--0--0--0--0-------|------------------------|
--------------------------|--------------------0----|------------------------|
--------------2--2--3--3--|-------------------------|-----0----2----3--2-----|
--------------------------|-------------------------|--3------------------3--|

                                                                            
------------------|------------------|------------------|------------------|
------------------|------------------|------------------|------------------|
------------------|------------------|------------------|------------------|
------------------|------------------|------------------|------------------|
------------------|------------------|------------------|------------------|
------------------|------------------|------------------|------------------|

fonte: http://whiplash.net/materias/btabs/032442-angra.html

About Janus

Janus Aureus is my recently-inaugurated personal blog (written in portuguese, but with some texts in english as well). Fiore Rouge is my old (but still very active - in fact, more than Janus :P) blog (I started it back in 2005). Mentalize is a fan-made website (since 2005). if you wish to contact me for any reason, visit my blog and leave a comment OR see email above (top left) - no, my name's not Andre - actually, I'm not even a guy! LOL Long story... O Janus Aureus é meu blog pessoal - escrito em português - ainda sem muito conteúdo, pois foi começado no final de dezembro de 2011. Já o Mentalize foi aberto em 2005 e está escrito em várias línguas *rs* Privilegio o uso do inglês ali porque o pessoal estrangeiro não tem muitas informações sobre o AM. Quem quiser entrar em contato comigo por qualquer motivo, deixe um comentário nos meus blogs ou use o email que está aí em cima à esquerda (e não, eu não sou o Andre - aliás, sou mulher!).

Leave a Reply

Fill in your details below or click an icon to log in:

WordPress.com Logo

You are commenting using your WordPress.com account. Log Out / Change )

Twitter picture

You are commenting using your Twitter account. Log Out / Change )

Facebook photo

You are commenting using your Facebook account. Log Out / Change )

Google+ photo

You are commenting using your Google+ account. Log Out / Change )

Connecting to %s