Silence and Distance (Angra)


A tablatura abaixo foi enviada por Moacy de Sousa Prado Junior | Publicado em 02/04/06

Depois da intro do teclado  comece a tocar 
------|-----------------------------------------------------------------------
------|------------0--------------------0--------------0----------------------
------|-2--2-2-2-2---2--2--2-2-2--2-2-2---2-2-2--2-2-2---2--2--2--------------
------|----------------------------------------------------------3-3-3-3-3-3--
 ...Be  come...  Fill 1                            2x                         

-------------|----------------------------------------------------------------
-------------|------------0-------------------0--------------0----------------
-------------|-2--2-2-2-2---2--2--2-2--2--2-2---2-2-2--2-2-2---2--2--2--------
-5-5-5-5-5-5-|---------------------------------------------------------3-3-3--
               Fill 2                                                         

-------------------|----------------------------------------------------------
-------------------|-----------0---------------------0------------------------
-------------------|-2--2--2-2---2--2--2-2-2-2-2-2-2---2-2-2--5-5-5-4-4-4-2---
-3-3-3-5-5-5-5-5-5-|----------------------------------------------------------
                     Fill 3                                                   

---------------------------|---------|--------|---------|------------------|--
---------------------------|---------|--------|---------|------------------|--
---------------------------|--2-0-2--|--------|--2-0-2--|------------------|--
-5-3-3-3-3-3-3-5-5-5-5-5-5-|---------|--3--5--|---------|-3--5--5-5-5------|--
                              Fill 4    Fill 5   12 x     Fill 6              

------------------------------------------------------------------------------
------5----------5----------4----------4--------------------------------------
------------------------------------------------------------------------------
-3--3---3-3-3--3---3-3-2--2---2-2-2--2---2-2-5-5-5-7-7-7-9-9-9-10-10-10-------
 Riff 1                                                                       

----------------------------|-------------------------------------------------
----------------------------|------5----------5----------4----------4---------
-7-7-7-9-9-9-10-10-10-9-7---|-------------------------------------------------
--------------------------9-|-3--3---3-3-3--3---3-3-2--2---2-2-2--2---2-2-7-7-
                              Riff 2                                          

-----------------------------------------------------|------------------------
-----------------------------------------------------|------5----------5------
------------------7---------------------------7------|------------------------
-7-9-9-9-10-10-10---10-9-7-7-7-9-9-9-10-10-10---10-9-|-3--3---3-3-3--3---3-3--
                                                       Riff 3                 

------------------------------------------------------------------------------
------4----------4---4--------------------------------------------------------
------------------------------------------------------------------------------
-2--2---2-2-2--2---2---0---0-10-12-12-12---0-12-10-12-7---7-7-7-7-5--5--3-----
                                                                              

------------------------------------|-----------------------------------------
---5--------------------------------|-----------------------------------------
------------------------------------|--------------9--------------------------
-3---3-3-3--3--2-2-2-2-2-2-2-2-2-2--|--7-7-7-5-7-7-7-7-7-7-7-7-5-5-5-5-5-5-5--
                                       Riff 4    2x                           

-----------------------------------------------------------|------------------
-----------------------------------------------------------|------------------
-----------------------------------------------6-6-6-7-7-9-|------------------
-5-5-5-5-5-4-4-4-4-4-4-4-4-4-4-4-4-0-0-0-0-0-0-0-0-0-2-2-4-|------------------
                                                                              

------------------------------------------------------------------------------
------------------------------------------------------------------------------
----10-10-9-10-9-10-10-10-9-10-9-10-9---9---9---9---9---9---------------------
--------------------------------------9---9---9---9---9---9-10-10-10-10-------
    Riff 5                                                                    

------------------------------------------------------------------------------
------------------------------------------------------------------------------
-------------------------10-10-10-10-10-10-10-10-10-10-10-10-----9-------9----
-10-10-10-10-10-10-10-10-------------------------------------9-9---9-9-9---9--
                                                                              

---------------------------------|--------------------------------------------
---------------------------------|--------------------------------------------
-----9-------9-------9-------9---|-----------9------------------9-------------
-9-9---9-9-9---9-9-9---9-9-9---9-|-7--7--7-7---7--7--7-7-7--7-7---7-7-7-------
                                   Fill 7                                     

-----------------------------------------|------------------------------------
-----------------------------------------|------------------------------------
-5-5-5-4-4-------------------------------|-5-5-5-5-5------8-8-8-8-8-----------
------------7--5-3-3-3-3-3-3-5-5-5-5-5-5-|------------------------------------

----------------|-------------------------------------------------------------
----------------|-------------------------------------------------------------
----------------|-------------------------------------------------------------
----------------|-----------3------------------3--------------3---------------
-3-3-3-3-3------|-5--5--5-5---5--5--5-5-5--5-5---5-5-5--5-5-5---5--5--5-0-0---
----------------|-------------------------------------------------------------
           ....   Fill 9                                                      

---------------------|--------------------------------------------------------
---------------------|--------------------------------------------------------
---------------------|------------3-------------------3---------------3-------
-0-0-0-0-2-2-2-2-2-2-|-5--5-5-5-5---5--5--5-5--5--5-5---5-5-5---5-5-5---5-5---
                       Fill 10                                                

----------------------------|-------------------------------|--------|------|-
----------------------------|------5------------------------|--------|------|-
----------------------------|-------------------------------|--------|------|-
-5--0-0-0-0-0-0-2-2-2-2-2-2-|-3--3---3-3-3------------------|-777----|------|-
                              Riff 1       ... Riff 2 3 4 5      ...  Riff 4  

------------------------------------------------------------------------------
------------------------------------------------------------------------------
-10----10----10----10----10----10----9---9---9---9---9---9---5-5-5---5---5-5--
----10----10----10----10----10----10---9---9---9---9---9---9-------5---5------
 Final                                                                       

---------------------------------|--------------------------------------------
---------------------------------|--------------------------------------------
-5---5---------------------------|-----9-------9-------9---9-9-9---9-------9--
---5---5-3-3-3-0-3-0-3-3-3-0-3-0-|-9-9---9-9-9---9-9-9---9-------9---9-9-9----
                                                                              

------------------------------------------------------------------------------
------------------------------------------------------------------------------
-------9----------------------------------------------------------------------
-9-9-9---9-9-9-9--------------------------------------------------------------

fonte: http://whiplash.net/indices/btabs_a.html

About Janus

Janus Aureus is my recently-inaugurated personal blog (written in portuguese, but with some texts in english as well). Fiore Rouge is my old (but still very active - in fact, more than Janus :P) blog (I started it back in 2005). Mentalize is a fan-made website (since 2005). if you wish to contact me for any reason, visit my blog and leave a comment OR see email above (top left) - no, my name's not Andre - actually, I'm not even a guy! LOL Long story... O Janus Aureus é meu blog pessoal - escrito em português - ainda sem muito conteúdo, pois foi começado no final de dezembro de 2011. Já o Mentalize foi aberto em 2005 e está escrito em várias línguas *rs* Privilegio o uso do inglês ali porque o pessoal estrangeiro não tem muitas informações sobre o AM. Quem quiser entrar em contato comigo por qualquer motivo, deixe um comentário nos meus blogs ou use o email que está aí em cima à esquerda (e não, eu não sou o Andre - aliás, sou mulher!).

Leave a Reply

Fill in your details below or click an icon to log in:

WordPress.com Logo

You are commenting using your WordPress.com account. Log Out / Change )

Twitter picture

You are commenting using your Twitter account. Log Out / Change )

Facebook photo

You are commenting using your Facebook account. Log Out / Change )

Google+ photo

You are commenting using your Google+ account. Log Out / Change )

Connecting to %s